Dm4

In drop D
Intro
e----------------------
B-3----3----3----3-----
G----------2---------2-
D-0----0----0----0-----
A----------------------
D----------------------

Riff 1
e-------1----------1----------1----------1----
B----3-----3----3-----3----3-----3----3-------
G-----2-----2----2-----2----2-----2----2------
D-0----------0----------0-----------0---------
A---------------------------------------------
D---------------------------------------------

Riff2
e----------------------0h1--1-1---0---
B--3-/-10---10-10--8------------------
G----------------------2-------2------
D-------7-------7--5------------------
A-------------------------------------
D-------------------------------------

Riff3
e--0h1p0------0------1--3/5-------
B--------3---------3----3/5-------
G---------2-----------------------
D--0-------0-----0----------------
A---------------------------0-----
D---------------------------------

Riff 4
e--0h1p0------0------3--3p0-----
B--------3---------3-3--3-------
G---------2---------------------
D--0-------0-----0--0-----------
A---------------------------0---
D-------------------------------

Riff 5
e----/10---10-10------5---5-5----3---3-3----1-----1-0------
B----/10---10-10------5---5-5----3---3-3----3----------3---
G-------------------------------------------2--------------
D-------------------------------0---0-----0---0-0--0---0---
A-------------------0----0-0-------------------------------
D--0------0------------------------------------------------

Riff 6
e------1--0--------1--0-------
B-----------3-----------3-----
G----2-----------2------------
D--0--------0--0--------0----- x2
A-----------------------------
D-----------------------------

Structure:
Intro
Riff 1
Riff 2
Riff 1
Riff 2

R3 R3 R4 R3 R5
R3 R3 R4 R3 R3 R3
Riff 5
Riff 6

R1 R2 R1 R2
Dm

Leave a Reply

Fill in your details below or click an icon to log in:

WordPress.com Logo

You are commenting using your WordPress.com account. Log Out / Change )

Twitter picture

You are commenting using your Twitter account. Log Out / Change )

Facebook photo

You are commenting using your Facebook account. Log Out / Change )

Google+ photo

You are commenting using your Google+ account. Log Out / Change )

Connecting to %s