Slipping Away

Seems like you’ve been having a great time lately
So I’ve been trying not to get in your way
I know I’m no more to you than unwelcome distraction
I’ll stop that, hang back and watch you happily slipping away

Please don’t feel low, you’re just a symptom of my disease
It can’t be your fault, this happens again and again and
If I know one thing, you should be with the people who make you feel good
And I should get used to the feeling of slipping away.

Guitar – tuning EADGBD – capo 5.

Verse

d------0-0-0----0-0-0-----0-0-0----0-0-0-----0-0-0----0-0-0-----------------
B------0-0-0----0-0-0-----0-0-0----0-0-0-----0-0-0----0-0-0-----------------
G------0-0-0----0-0-0-----0-0-0----0-0-0-----0-0-0----0-0-0-----------------
D--2/4--------2--------------------------2/4--------2-------2/5-4-2------0--
A---------------------2/4--------2-----------------------------------2-4----
E---------------------------------------------------------------------------

Instrumental
d---0-0-0--0-0-0--0-0-0--0-0-0--0-0-0--0-0-0--0-0-0--0-0-0----
B---3-3-3--3-3-3--3-3-3--3-3-3--3-3-3--3-3-3--3-3-3--3-3-3----
G---2-2-2--2-2-2--2-2-2--2-2-2--2-2-2--2-2-2--0-0-0--0-0-0----
D--0------0----------------------------------2----------------
A----------------2------2------0------0-------------4---------
E-------------------------------------------------------------

d---0-0-0--0-0-0--0-0-0--0-0-0--0-0-0--0-0-0--0-0-0--0-0-0---------4-2-0----0-
B---3-3-3--3-3-3--3-3-3--3-3-3--3-3-3--3-3-3--3-3-3--3-3-3--2-----------------
G---2-2-2--2-2-2--2-2-2--2-2-2--2-2-2--2-2-2--0-0-0--0-0-0--0-----------2/4---
D--0------0----------------------------------2------2-------2-----------------
A----------------2------2------0------0---------------------0-----------------
E-----------------------------------------------------------------------------

Leave a Reply

Fill in your details below or click an icon to log in:

WordPress.com Logo

You are commenting using your WordPress.com account. Log Out / Change )

Twitter picture

You are commenting using your Twitter account. Log Out / Change )

Facebook photo

You are commenting using your Facebook account. Log Out / Change )

Google+ photo

You are commenting using your Google+ account. Log Out / Change )

Connecting to %s