Happy Friday on the Moon

Watch the video

Chords used:
 E9   D9  A   A*  G   E         
e-|-----------0---5---3---0-------
B-|---7---5---2---5---3---0-------
G-|---7---5---2---6---4---1-------
D-|---6---4---2---7---5---2-------
A-|---7---5---0---7---5---2-------
E-|---------------5---3---0-------

Intro
e-|-----------7-----------------5---------------------0---------------------0-----------
B-|------7--------7--------5-------5----------0h2--------2----------0h2-------2---------
G-|-------7-----------------5---------------------2--------2------------2-------2-------
D-|----6---6-------------4---4-------------2--------2------------2--------2-------------
A-|--7------------7----5-----------5----0---------------------0-------------------------
E-|-------------------------------------------------------------------------------------

E9               D9

The strings dance as I lie on my bed
A
I feel another day deserting me.
No thought can stay in my head
long enough to be a daydream.

E               G          A*

So take me in, take me inside and hold me there.

Riff:          E9             D9       A
e-|-----------------------------------------0-------
B-|-------------7----------------5----------2-------
G-|-------0-----7----------------5----------2-------
D-|-------------6-----------2----4----------2-------
A-|--0h3h5---7--7------0h3h5--5--5--------3-0-------
E-|----------------------------------0h3h5----------

Jack has me falling in love again
But it’s just so distant (like all my friends)
I’m living for phone calls and the words you write,
Let’s just stay up all night.

And take me in, take me inside and hold me there.

Riff

Solo:

e-|--------12--------10---0-------------12---------7-10-7--0------
B-|--7--s--12--5--s--10---2-------7--s--12---5--s--7-10-7--2------
G-|--7---------5----------2-------7----------5-------------2------
D-|--6---------4----------2-------6----------4-------------2------
A-|--7---------5----------0-------7----------5-------------0------
e-|---------------------------------------------------------------

No drums, no keys, no bass
I’ve got all I need to make a song for you.
The words fall off my tongue and the strings all sing along
It’s all for you.

So take me in, take me inside your mind and hold me there.

Riff

Intro

Leave a Reply

Fill in your details below or click an icon to log in:

WordPress.com Logo

You are commenting using your WordPress.com account. Log Out / Change )

Twitter picture

You are commenting using your Twitter account. Log Out / Change )

Facebook photo

You are commenting using your Facebook account. Log Out / Change )

Google+ photo

You are commenting using your Google+ account. Log Out / Change )

Connecting to %s