Another Day, Another Motorway

Standard tuning

Chords used:

      G   C    Em7     D     D (alt)

e-|---3---0-----0------2-----0------------
B-|---3---8-----3------3-----3-------------
G-|---0---7-----0------2-----0-----------
D-|---0---x-----2------0-----4------------
A-|---2---x-----x------------5----------
E-|---3---8-----0-----------------------
Intro
e|---3----------------3--------------------------------------0-------
B|---------3---------------3--------------8---------8----------8-----
G|-------------0----------------0--------------7--------7------------
D|---0---------------------------------------------------------------
A|-------------------------------------------------------------------
E|-3---3---3-----3----3----3----3-/s/-8--8---8---8------8---8-/s/-3-

Follow that basic picking pattern with these chords

G
Another day, another motorway
C
Another set of city lights await
Em
Another bed that’s not my own
D
One more night away from home.

I’m gonna stop, gonna slow myself right down
Gonna spend a few weeks in this town
Where I can write and clear my mind
I’ll see you all another time.

G
When I say
C
When I say
G                            C
When I say ‘too much’, it’s not enough.

One response to “Another Day, Another Motorway

  1. Yes! Finally, a song by you that I think I can play after two weeks of learning guitar, if I ignore those tabs at the top… :/

Leave a Reply

Fill in your details below or click an icon to log in:

WordPress.com Logo

You are commenting using your WordPress.com account. Log Out / Change )

Twitter picture

You are commenting using your Twitter account. Log Out / Change )

Facebook photo

You are commenting using your Facebook account. Log Out / Change )

Google+ photo

You are commenting using your Google+ account. Log Out / Change )

Connecting to %s