Starting Gun

Every time you wanna be, what you’re not supposed to be,
You’re gonna find somebody who’ll tell you that you can’t.
If you wanna smoke weed or go to university,
You wanna join Greenpeace or make a work of art.
Anything that don’t involve doing just what you’re told,
9 to 5 or on the dole, you end up where you start.
But I bet you’ll find someone who gets just where you’re coming from,
Make your own starting gun, start following your heart.

I’ve heard a lot of people say things just didn’t go their way
And we’ve all got bills to pay, so we’d better play it smart.
And there’s nothing like a safety pin to stop the danger coming in,
And keep your candle flickering, lonely in the dark.
You think that it’s a risky game if you try and feed the flame,
But if you’re not prepared to take the blame you’ll never see the spark.
So don’t let mortality, fear, shame or formality
Tell you who you’re gonna be or tell you who you are.

Tuning DADGAD
Capo 6

Main riff

D-------0------0------0--------0------0------0------
A-------0------0------0--------0------0------0------
G--------0------0-----0---------0------0-----0------
D-----0------0--------0----------------------0------
A--0h2----2s3--------------0h2----2s3----3s5--------
D-----------------4s5------------------------------- 
D-------0------0------0--------0------0--------------
A-------0------0------0--------0------0--------------
G--------0------0-----0---------0------0---4-2-0-----
D-----0------0--------0------------------------------
A--0h2----2s3--------------0h2----2s3----------------
D-----------------4s5--------------------------------

End chords

D---0-----------------0---4-0-2-0-------------------------
A---0-----------------0-----------2-0---------------------------
G---4---2-0-----------4----------------------------------
D---5-------2-0-------5---4-0-2-0---------------------------
A---5-----------2-0---5-----------2-0----------------------
D------------------------------------------------------

One response to “Starting Gun

  1. TAB TAB TAB TAB TAB! Please?

Leave a Reply

Fill in your details below or click an icon to log in:

WordPress.com Logo

You are commenting using your WordPress.com account. Log Out / Change )

Twitter picture

You are commenting using your Twitter account. Log Out / Change )

Facebook photo

You are commenting using your Facebook account. Log Out / Change )

Google+ photo

You are commenting using your Google+ account. Log Out / Change )

Connecting to %s