Keep Singing

Walked through the trenches I heard
All the soldiers singing
Together they sung it loud
But if you’d pick a voice out you’d hear
That voice was soft and trembling
Like a kid in a haunted house

Once I was somewhere I knew
I heard the children singing
Christmas carols in June
They sung like angels in the bright hot sunshine
But when the music was through
They kept on singing

I saw a mountain crumble
At the feet of a chequebook
A million years reversed
I saw a high rise tumble
And the owner strolled out singing
With no regret in his verse

Guitar
Acoustic tuned to DADGAD

d|----0---0------0---0---0-----0------
a|----0---0------0---0---0-----0------
G|----0---0------0---0---0-----0------
D|--2-2-2----2p0-----0---0------------
A|----0------------2-2-2---2s5--------
D|------------------------------------

d|----0---0------0---0---0------------
a|----0---0------0---0---0------------
G|----0---0------0---0---0------------
D|--2-2-2----2p0-----0---0------------
A|----0------------2-2-2---2p0--------
D|------------------------------------
d|--2------5--0------------2----5--0---0--0--
a|--0------0--0------------0----0--0---0--0--
G|--0------0--2----2-4-2-0-0----0--2---4--7--
D|--2------5--0------------2----5--0---0--0--
A|--0------0--0------------0----0------------
D|--2------5---------------2----5------------

Improv the solos!

One response to “Keep Singing

  1. yeah!!!! i just learned to tune my guitar to dadgad just for this song im so proud haha im danny i hope you remember me from before dave youre songs are the best hope youre well 😀

Leave a Reply

Fill in your details below or click an icon to log in:

WordPress.com Logo

You are commenting using your WordPress.com account. Log Out / Change )

Twitter picture

You are commenting using your Twitter account. Log Out / Change )

Facebook photo

You are commenting using your Facebook account. Log Out / Change )

Google+ photo

You are commenting using your Google+ account. Log Out / Change )

Connecting to %s